ISO-10303-21;
HEADER;
FILE_DESCRIPTION (( 'STEP AP203' ),
    '1' );
FILE_NAME ('FM1016-2_3D.step',
    '2021-04-21T15:58:07',
    ( '' ),
    ( '' ),
    'SwSTEP 2.0',
    'SolidWorks 2020',
    '' );
FILE_SCHEMA (( 'CONFIG_CONTROL_DESIGN' ));
ENDSEC;

DATA;
#1 = CC_DESIGN_PERSON_AND_ORGANIZATION_ASSIGNMENT ( #170, #205, ( #266 ) ) ;
#2 = DIRECTION ( 'NONE',  ( 1.000000000000000000, 0.000000000000000000, 0.000000000000000000 ) ) ;
#3 = CARTESIAN_POINT ( 'NONE',  ( 0.000000000000000000, 0.000000000000000000, -4.439999999999999503 ) ) ;
#4 = VECTOR ( 'NONE', #139, 1000.000000000000000 ) ;
#5 = DIRECTION ( 'NONE',  ( -1.000000000000000000, 0.000000000000000000, -0.000000000000000000 ) ) ;
#6 = FACE_OUTER_BOUND ( 'NONE', #122, .T. ) ;
#7 = DIRECTION ( 'NONE',  ( 1.000000000000000000, 0.000000000000000000, 0.000000000000000000 ) ) ;
#8 = CARTESIAN_POINT ( 'NONE',  ( 0.1078192932642391827, -0.04000000000000009104, -4.439999999999999503 ) ) ;
#9 = CIRCLE ( 'NONE', #49, 0.1150000000000000883 ) ;
#10 = CC_DESIGN_PERSON_AND_ORGANIZATION_ASSIGNMENT ( #291, #132, ( #263 ) ) ;
#11 = CARTESIAN_POINT ( 'NONE',  ( 0.000000000000000000, 0.000000000000000000, -4.059999999999999609 ) ) ;
#12 = DATE_AND_TIME ( #176, #162 ) ;
#13 = FACE_OUTER_BOUND ( 'NONE', #317, .T. ) ;
#14 = APPROVAL_STATUS ( 'not_yet_approved' ) ;
#15 = ORIENTED_EDGE ( 'NONE', *, *, #27, .F. ) ;
#16 =( NAMED_UNIT ( * ) SI_UNIT ( $, .STERADIAN. ) SOLID_ANGLE_UNIT ( ) );
#17 = EDGE_LOOP ( 'NONE', ( #147, #15 ) ) ;
#18 = APPROVAL_PERSON_ORGANIZATION ( #19, #270, #198 ) ;
#19 = PERSON_AND_ORGANIZATION ( #65, #56 ) ;
#20 = ORIENTED_EDGE ( 'NONE', *, *, #289, .T. ) ;
#21 = AXIS2_PLACEMENT_3D ( 'NONE', #283, #241, #124 ) ;
#22 = EDGE_LOOP ( 'NONE', ( #68 ) ) ;
#23 = APPLICATION_CONTEXT ( 'configuration controlled 3d designs of mechanical parts and assemblies' ) ;
#24 = DIRECTION ( 'NONE',  ( 0.000000000000000000, 1.000000000000000000, 0.000000000000000000 ) ) ;
#25 = APPROVAL_PERSON_ORGANIZATION ( #335, #70, #138 ) ;
#26 = ORIENTED_EDGE ( 'NONE', *, *, #288, .T. ) ;
#27 = EDGE_CURVE ( 'NONE', #279, #285, #66, .T. ) ;
#28 = ORIENTED_EDGE ( 'NONE', *, *, #209, .T. ) ;
#29 = CARTESIAN_POINT ( 'NONE',  ( 0.000000000000000000, 0.000000000000000000, -0.8799999999999992273 ) ) ;
#30 = APPLICATION_PROTOCOL_DEFINITION ( 'international standard', 'config_control_design', 1994, #38 ) ;
#31 = PLANE ( 'NONE',  #152 ) ;
#32 = DIRECTION ( 'NONE',  ( -1.000000000000000000, 0.000000000000000000, 0.000000000000000000 ) ) ;
#33 = DIRECTION ( 'NONE',  ( -1.000000000000000000, 0.000000000000000000, 0.000000000000000000 ) ) ;
#34 = FACE_OUTER_BOUND ( 'NONE', #236, .T. ) ;
#35 =( GEOMETRIC_REPRESENTATION_CONTEXT ( 3 ) GLOBAL_UNCERTAINTY_ASSIGNED_CONTEXT ( ( #252 ) ) GLOBAL_UNIT_ASSIGNED_CONTEXT ( ( #336, #226, #16 ) ) REPRESENTATION_CONTEXT ( 'NONE', 'WORKASPACE' ) );
#36 = EDGE_CURVE ( 'NONE', #313, #143, #180, .T. ) ;
#37 = APPROVAL_DATE_TIME ( #256, #270 ) ;
#38 = APPLICATION_CONTEXT ( 'configuration controlled 3d designs of mechanical parts and assemblies' ) ;
#39 = ORIENTED_EDGE ( 'NONE', *, *, #209, .F. ) ;
#40 = CARTESIAN_POINT ( 'NONE',  ( 0.1078192932642391966, 0.04000000000000003553, -4.439999999999999503 ) ) ;
#41 = DATE_TIME_ROLE ( 'classification_date' ) ;
#42 = EDGE_LOOP ( 'NONE', ( #342 ) ) ;
#43 = EDGE_CURVE ( 'NONE', #207, #285, #121, .T. ) ;
#44 = DIRECTION ( 'NONE',  ( 0.000000000000000000, 0.000000000000000000, 1.000000000000000000 ) ) ;
#45 = AXIS2_PLACEMENT_3D ( 'NONE', #271, #219, #273 ) ;
#46 = CARTESIAN_POINT ( 'NONE',  ( 0.000000000000000000, 0.000000000000000000, -4.059999999999999609 ) ) ;
#47 = DIRECTION ( 'NONE',  ( 2.513933591246015121E-16, 1.000000000000000000, 0.000000000000000000 ) ) ;
#48 = ORIENTED_EDGE ( 'NONE', *, *, #27, .T. ) ;
#49 = AXIS2_PLACEMENT_3D ( 'NONE', #109, #274, #54 ) ;
#50 = DIRECTION ( 'NONE',  ( -0.000000000000000000, -0.000000000000000000, 1.000000000000000000 ) ) ;
#51 = DIRECTION ( 'NONE',  ( 1.000000000000000000, -0.000000000000000000, -0.000000000000000000 ) ) ;
#52 = FACE_OUTER_BOUND ( 'NONE', #339, .T. ) ;
#53 = CARTESIAN_POINT ( 'NONE',  ( -0.1078192932642392105, -0.04000000000000003553, -4.439999999999999503 ) ) ;
#54 = DIRECTION ( 'NONE',  ( 1.000000000000000000, 0.000000000000000000, 0.000000000000000000 ) ) ;
#55 = ADVANCED_FACE ( 'NONE', ( #237, #126 ), #265, .T. ) ;
#56 = ORGANIZATION ( 'UNSPECIFIED', 'UNSPECIFIED', '' ) ;
#57 = CC_DESIGN_SECURITY_CLASSIFICATION ( #266, ( #298 ) ) ;
#58 = VECTOR ( 'NONE', #213, 1000.000000000000000 ) ;
#59 = EDGE_LOOP ( 'NONE', ( #28, #281, #343, #96, #48, #306, #171, #312 ) ) ;
#60 = CARTESIAN_POINT ( 'NONE',  ( -0.3699999999999999956, 0.000000000000000000, -0.8799999999999992273 ) ) ;
#61 = DATE_AND_TIME ( #338, #144 ) ;
#62 = CC_DESIGN_APPROVAL ( #270, ( #266 ) ) ;
#63 = CARTESIAN_POINT ( 'NONE',  ( -0.1150000000000000744, 0.000000000000000000, -4.059999999999999609 ) ) ;
#64 = ORIENTED_EDGE ( 'NONE', *, *, #84, .F. ) ;
#65 = PERSON ( 'UNSPECIFIED', 'UNSPECIFIED', 'UNSPECIFIED', ('UNSPECIFIED'), ('UNSPECIFIED'), ('UNSPECIFIED') ) ;
#66 = CIRCLE ( 'NONE', #125, 0.1150000000000000883 ) ;
#67 = PERSON_AND_ORGANIZATION ( #65, #56 ) ;
#68 = ORIENTED_EDGE ( 'NONE', *, *, #84, .T. ) ;
#69 = ADVANCED_FACE ( 'NONE', ( #341 ), #150, .T. ) ;
#70 = APPROVAL ( #303, 'UNSPECIFIED' ) ;
#71 = CARTESIAN_POINT ( 'NONE',  ( 0.000000000000000000, 0.000000000000000000, -0.8799999999999992273 ) ) ;
#72 = DIRECTION ( 'NONE',  ( 1.000000000000000000, 0.000000000000000000, 0.000000000000000000 ) ) ;
#73 = AXIS2_PLACEMENT_3D ( 'NONE', #250, #220, #7 ) ;
#74 = EDGE_LOOP ( 'NONE', ( #332, #39 ) ) ;
#75 = LINE ( 'NONE', #100, #223 ) ;
#76 = ORIENTED_EDGE ( 'NONE', *, *, #308, .T. ) ;
#77 = DIRECTION ( 'NONE',  ( 0.000000000000000000, 0.000000000000000000, 1.000000000000000000 ) ) ;
#78 = CARTESIAN_POINT ( 'NONE',  ( 0.000000000000000000, 0.000000000000000000, -4.059999999999999609 ) ) ;
#79 = DATE_AND_TIME ( #217, #325 ) ;
#80 = EDGE_CURVE ( 'NONE', #309, #177, #75, .T. ) ;
#81 = PRODUCT_RELATED_PRODUCT_CATEGORY ( 'detail', '', ( #263 ) ) ;
#82 = FACE_OUTER_BOUND ( 'NONE', #97, .T. ) ;
#83 = CARTESIAN_POINT ( 'NONE',  ( 0.000000000000000000, 0.000000000000000000, -4.439999999999999503 ) ) ;
#84 = EDGE_CURVE ( 'NONE', #334, #334, #315, .T. ) ;
#85 = CARTESIAN_POINT ( 'NONE',  ( 0.1078192932642391688, -0.04000000000000009104, -4.059999999999999609 ) ) ;
#86 = DIRECTION ( 'NONE',  ( -1.000000000000000000, 0.000000000000000000, 0.000000000000000000 ) ) ;
#87 = DATE_TIME_ROLE ( 'creation_date' ) ;
#88 = DIRECTION ( 'NONE',  ( -1.000000000000000000, 0.000000000000000000, 0.000000000000000000 ) ) ;
#89 = COORDINATED_UNIVERSAL_TIME_OFFSET ( 8, 0, .BEHIND. ) ;
#90 = ORIENTED_EDGE ( 'NONE', *, *, #288, .F. ) ;
#91 = CARTESIAN_POINT ( 'NONE',  ( -0.1078192932642391966, 0.04000000000000003553, -4.439999999999999503 ) ) ;
#92 = PERSON_AND_ORGANIZATION_ROLE ( 'creator' ) ;
#93 = ORIENTED_EDGE ( 'NONE', *, *, #183, .F. ) ;
#94 = PRODUCT_DEFINITION ( 'UNKNOWN', '', #298, #193 ) ;
#95 = VECTOR ( 'NONE', #51, 1000.000000000000000 ) ;
#96 = ORIENTED_EDGE ( 'NONE', *, *, #183, .T. ) ;
#97 = EDGE_LOOP ( 'NONE', ( #184, #277, #299, #239 ) ) ;
#98 = CARTESIAN_POINT ( 'NONE',  ( 0.000000000000000000, 0.000000000000000000, -0.8799999999999992273 ) ) ;
#99 = CARTESIAN_POINT ( 'NONE',  ( 0.1078192932642391966, -0.04000000000000004940, -4.439999999999999503 ) ) ;
#100 = CARTESIAN_POINT ( 'NONE',  ( -0.1078192932642391966, 0.04000000000000003553, -4.439999999999999503 ) ) ;
#101 = DIRECTION ( 'NONE',  ( 1.000000000000000000, 0.000000000000000000, 0.000000000000000000 ) ) ;
#102 = CC_DESIGN_APPROVAL ( #163, ( #94 ) ) ;
#103 = ADVANCED_FACE ( 'NONE', ( #282, #123 ), #238, .T. ) ;
#104 = PLANE ( 'NONE',  #287 ) ;
#105 = COORDINATED_UNIVERSAL_TIME_OFFSET ( 8, 0, .BEHIND. ) ;
#106 = FACE_BOUND ( 'NONE', #22, .T. ) ;
#107 = APPROVAL_ROLE ( '' ) ;
#108 = DIRECTION ( 'NONE',  ( 0.000000000000000000, 0.000000000000000000, -1.000000000000000000 ) ) ;
#109 = CARTESIAN_POINT ( 'NONE',  ( 0.000000000000000000, 0.000000000000000000, -0.1149999999999996581 ) ) ;
#110 = AXIS2_PLACEMENT_3D ( 'NONE', #98, #214, #145 ) ;
#111 = AXIS2_PLACEMENT_3D ( 'NONE', #295, #326, #290 ) ;
#112 = DIRECTION ( 'NONE',  ( -1.000000000000000000, 2.513933591246015121E-16, 0.000000000000000000 ) ) ;
#113 = FACE_OUTER_BOUND ( 'NONE', #17, .T. ) ;
#114 = ORIENTED_EDGE ( 'NONE', *, *, #280, .T. ) ;
#115 = PLANE ( 'NONE',  #215 ) ;
#116 = COORDINATED_UNIVERSAL_TIME_OFFSET ( 8, 0, .BEHIND. ) ;
#117 = CC_DESIGN_PERSON_AND_ORGANIZATION_ASSIGNMENT ( #234, #278, ( #298 ) ) ;
#118 = LINE ( 'NONE', #275, #4 ) ;
#119 = APPROVAL_DATE_TIME ( #61, #70 ) ;
#120 = PRODUCT_DEFINITION_SHAPE ( 'NONE', 'NONE',  #94 ) ;
#121 = LINE ( 'NONE', #99, #58 ) ;
#122 = EDGE_LOOP ( 'NONE', ( #257, #182, #200, #26 ) ) ;
#123 = FACE_OUTER_BOUND ( 'NONE', #42, .T. ) ;
#124 = DIRECTION ( 'NONE',  ( -1.000000000000000000, 0.000000000000000000, -0.000000000000000000 ) ) ;
#125 = AXIS2_PLACEMENT_3D ( 'NONE', #46, #44, #72 ) ;
#126 = FACE_OUTER_BOUND ( 'NONE', #261, .T. ) ;
#127 = ADVANCED_FACE ( 'NONE', ( #319 ), #211, .F. ) ;
#128 = CC_DESIGN_PERSON_AND_ORGANIZATION_ASSIGNMENT ( #311, #227, ( #94 ) ) ;
#129 = DIRECTION ( 'NONE',  ( 0.000000000000000000, 0.000000000000000000, -1.000000000000000000 ) ) ;
#130 = PERSON_AND_ORGANIZATION ( #65, #56 ) ;
#131 = FACE_OUTER_BOUND ( 'NONE', #142, .T. ) ;
#132 = PERSON_AND_ORGANIZATION_ROLE ( 'design_owner' ) ;
#133 = CIRCLE ( 'NONE', #333, 0.1150000000000000883 ) ;
#134 = DIRECTION ( 'NONE',  ( 1.000000000000000000, 0.000000000000000000, -0.000000000000000000 ) ) ;
#135 = CARTESIAN_POINT ( 'NONE',  ( -0.1078192932642391966, -0.04000000000000003553, -4.059999999999999609 ) ) ;
#136 = CARTESIAN_POINT ( 'NONE',  ( -0.1078192932642392105, -0.04000000000000003553, -4.439999999999999503 ) ) ;
#137 = ADVANCED_FACE ( 'NONE', ( #190 ), #221, .F. ) ;
#138 = APPROVAL_ROLE ( '' ) ;
#139 = DIRECTION ( 'NONE',  ( -1.000000000000000000, 2.513933591246015121E-16, 0.000000000000000000 ) ) ;
#140 = ORIENTED_EDGE ( 'NONE', *, *, #164, .T. ) ;
#141 = ADVANCED_FACE ( 'NONE', ( #106, #52 ), #31, .F. ) ;
#142 = EDGE_LOOP ( 'NONE', ( #64 ) ) ;
#143 = VERTEX_POINT ( 'NONE', #292 ) ;
#144 = LOCAL_TIME ( 8, 58, 7.000000000000000000, #89 ) ;
#145 = DIRECTION ( 'NONE',  ( -1.000000000000000000, 0.000000000000000000, 0.000000000000000000 ) ) ;
#146 = VECTOR ( 'NONE', #195, 1000.000000000000000 ) ;
#147 = ORIENTED_EDGE ( 'NONE', *, *, #308, .F. ) ;
#148 = EDGE_LOOP ( 'NONE', ( #210 ) ) ;
#149 = CARTESIAN_POINT ( 'NONE',  ( 0.000000000000000000, 0.000000000000000000, 0.000000000000000000 ) ) ;
#150 = SPHERICAL_SURFACE ( 'NONE', #174, 0.1150000000000000050 ) ;
#151 = ADVANCED_FACE ( 'NONE', ( #6 ), #157, .T. ) ;
#152 = AXIS2_PLACEMENT_3D ( 'NONE', #29, #327, #5 ) ;
#153 = AXIS2_PLACEMENT_3D ( 'NONE', #83, #192, #86 ) ;
#154 = EDGE_CURVE ( 'NONE', #309, #313, #242, .T. ) ;
#155 = CARTESIAN_POINT ( 'NONE',  ( -0.1078192932642392105, 0.04000000000000003553, -4.059999999999999609 ) ) ;
#156 = CARTESIAN_POINT ( 'NONE',  ( 0.000000000000000000, 0.000000000000000000, -0.8799999999999992273 ) ) ;
#157 = PLANE ( 'NONE',  #301 ) ;
#158 = AXIS2_PLACEMENT_3D ( 'NONE', #78, #296, #134 ) ;
#159 = DIRECTION ( 'NONE',  ( 0.000000000000000000, 0.000000000000000000, -1.000000000000000000 ) ) ;
#160 = LINE ( 'NONE', #8, #206 ) ;
#161 = CARTESIAN_POINT ( 'NONE',  ( -0.1150000000000000744, 0.000000000000000000, -0.8799999999999992273 ) ) ;
#162 = LOCAL_TIME ( 8, 58, 7.000000000000000000, #173 ) ;
#163 = APPROVAL ( #243, 'UNSPECIFIED' ) ;
#164 = EDGE_CURVE ( 'NONE', #202, #202, #199, .T. ) ;
#165 = DIRECTION ( 'NONE',  ( 0.000000000000000000, 0.000000000000000000, 1.000000000000000000 ) ) ;
#166 = CARTESIAN_POINT ( 'NONE',  ( 0.000000000000000000, 0.000000000000000000, -4.059999999999999609 ) ) ;
#167 = SHAPE_DEFINITION_REPRESENTATION ( #120, #201 ) ;
#168 = EDGE_LOOP ( 'NONE', ( #76, #93, #90, #203 ) ) ;
#169 = VERTEX_POINT ( 'NONE', #232 ) ;
#170 = PERSON_AND_ORGANIZATION ( #65, #56 ) ;
#171 = ORIENTED_EDGE ( 'NONE', *, *, #235, .F. ) ;
#172 = LOCAL_TIME ( 8, 58, 7.000000000000000000, #305 ) ;
#173 = COORDINATED_UNIVERSAL_TIME_OFFSET ( 8, 0, .BEHIND. ) ;
#174 = AXIS2_PLACEMENT_3D ( 'NONE', #264, #24, #2 ) ;
#175 = EDGE_LOOP ( 'NONE', ( #314 ) ) ;
#176 = CALENDAR_DATE ( 2021, 21, 4 ) ;
#177 = VERTEX_POINT ( 'NONE', #155 ) ;
#178 = DIRECTION ( 'NONE',  ( 0.000000000000000000, 0.000000000000000000, -1.000000000000000000 ) ) ;
#179 = AXIS2_PLACEMENT_3D ( 'NONE', #166, #307, #304 ) ;
#180 = LINE ( 'NONE', #284, #321 ) ;
#181 = CIRCLE ( 'NONE', #73, 0.1150000000000000883 ) ;
#182 = ORIENTED_EDGE ( 'NONE', *, *, #154, .T. ) ;
#183 = EDGE_CURVE ( 'NONE', #208, #279, #251, .T. ) ;
#184 = ORIENTED_EDGE ( 'NONE', *, *, #247, .T. ) ;
#185 = LOCAL_TIME ( 8, 58, 7.000000000000000000, #116 ) ;
#186 = EDGE_LOOP ( 'NONE', ( #231 ) ) ;
#187 = MECHANICAL_CONTEXT ( 'NONE', #23, 'mechanical' ) ;
#188 = CARTESIAN_POINT ( 'NONE',  ( 0.1078192932642391966, 0.04000000000000003553, -4.439999999999999503 ) ) ;
#189 = APPROVAL_DATE_TIME ( #79, #163 ) ;
#190 = FACE_OUTER_BOUND ( 'NONE', #74, .T. ) ;
#191 = CARTESIAN_POINT ( 'NONE',  ( 0.1078192932642391966, 0.04000000000000003553, -4.059999999999999609 ) ) ;
#192 = DIRECTION ( 'NONE',  ( 0.000000000000000000, 0.000000000000000000, -1.000000000000000000 ) ) ;
#193 = DESIGN_CONTEXT ( 'detailed design', #38, 'design' ) ;
#194 = MANIFOLD_SOLID_BREP ( 'Fillet1', #240 ) ;
#195 = DIRECTION ( 'NONE',  ( 1.000000000000000000, -0.000000000000000000, -0.000000000000000000 ) ) ;
#196 = EDGE_CURVE ( 'NONE', #208, #309, #133, .T. ) ;
#197 = CARTESIAN_POINT ( 'NONE',  ( -0.3699999999999999956, 0.000000000000000000, -4.059999999999999609 ) ) ;
#198 = APPROVAL_ROLE ( '' ) ;
#199 = CIRCLE ( 'NONE', #45, 0.1150000000000000744 ) ;
#200 = ORIENTED_EDGE ( 'NONE', *, *, #235, .T. ) ;
#201 = ADVANCED_BREP_SHAPE_REPRESENTATION ( 'FM1016-2_3D', ( #194, #297, #320 ), #35 ) ;
#202 = VERTEX_POINT ( 'NONE', #63 ) ;
#203 = ORIENTED_EDGE ( 'NONE', *, *, #43, .T. ) ;
#204 = FACE_OUTER_BOUND ( 'NONE', #59, .T. ) ;
#205 = PERSON_AND_ORGANIZATION_ROLE ( 'classification_officer' ) ;
#206 = VECTOR ( 'NONE', #112, 1000.000000000000000 ) ;
#207 = VERTEX_POINT ( 'NONE', #323 ) ;
#208 = VERTEX_POINT ( 'NONE', #53 ) ;
#209 = EDGE_CURVE ( 'NONE', #143, #177, #181, .T. ) ;
#210 = ORIENTED_EDGE ( 'NONE', *, *, #280, .F. ) ;
#211 = PLANE ( 'NONE',  #218 ) ;
#212 = EDGE_CURVE ( 'NONE', #233, #233, #255, .T. ) ;
#213 = DIRECTION ( 'NONE',  ( -0.000000000000000000, -0.000000000000000000, 1.000000000000000000 ) ) ;
#214 = DIRECTION ( 'NONE',  ( 0.000000000000000000, 0.000000000000000000, -1.000000000000000000 ) ) ;
#215 = AXIS2_PLACEMENT_3D ( 'NONE', #330, #165, #228 ) ;
#216 = CARTESIAN_POINT ( 'NONE',  ( 0.1078192932642391966, 0.04000000000000003553, -4.439999999999999503 ) ) ;
#217 = CALENDAR_DATE ( 2021, 21, 4 ) ;
#218 = AXIS2_PLACEMENT_3D ( 'NONE', #262, #47, #246 ) ;
#219 = DIRECTION ( 'NONE',  ( 0.000000000000000000, 0.000000000000000000, -1.000000000000000000 ) ) ;
#220 = DIRECTION ( 'NONE',  ( 0.000000000000000000, 0.000000000000000000, 1.000000000000000000 ) ) ;
#221 = PLANE ( 'NONE',  #158 ) ;
#222 = AXIS2_PLACEMENT_3D ( 'NONE', #71, #178, #286 ) ;
#223 = VECTOR ( 'NONE', #50, 1000.000000000000000 ) ;
#224 = DIRECTION ( 'NONE',  ( -1.000000000000000000, 0.000000000000000000, -0.000000000000000000 ) ) ;
#225 = ADVANCED_FACE ( 'NONE', ( #82 ), #104, .F. ) ;
#226 =( NAMED_UNIT ( * ) PLANE_ANGLE_UNIT ( ) SI_UNIT ( $, .RADIAN. ) );
#227 = PERSON_AND_ORGANIZATION_ROLE ( 'creator' ) ;
#228 = DIRECTION ( 'NONE',  ( 1.000000000000000000, 0.000000000000000000, -0.000000000000000000 ) ) ;
#229 = AXIS2_PLACEMENT_3D ( 'NONE', #11, #337, #88 ) ;
#230 = DATE_AND_TIME ( #331, #172 ) ;
#231 = ORIENTED_EDGE ( 'NONE', *, *, #164, .F. ) ;
#232 = CARTESIAN_POINT ( 'NONE',  ( 0.1150000000000000883, 0.000000000000000000, -0.1149999999999996581 ) ) ;
#233 = VERTEX_POINT ( 'NONE', #60 ) ;
#234 = PERSON_AND_ORGANIZATION ( #65, #56 ) ;
#235 = EDGE_CURVE ( 'NONE', #313, #207, #310, .T. ) ;
#236 = EDGE_LOOP ( 'NONE', ( #140 ) ) ;
#237 = FACE_BOUND ( 'NONE', #186, .T. ) ;
#238 = CYLINDRICAL_SURFACE ( 'NONE', #110, 0.3699999999999999956 ) ;
#239 = ORIENTED_EDGE ( 'NONE', *, *, #80, .T. ) ;
#240 = CLOSED_SHELL ( 'NONE', ( #318, #137, #328, #225, #127, #151, #69 ) ) ;
#241 = DIRECTION ( 'NONE',  ( 0.000000000000000000, 0.000000000000000000, -1.000000000000000000 ) ) ;
#242 = LINE ( 'NONE', #188, #146 ) ;
#243 = APPROVAL_STATUS ( 'not_yet_approved' ) ;
#244 = CC_DESIGN_APPROVAL ( #70, ( #298 ) ) ;
#245 = CC_DESIGN_DATE_AND_TIME_ASSIGNMENT ( #12, #41, ( #266 ) ) ;
#246 = DIRECTION ( 'NONE',  ( -1.000000000000000000, 2.513933591246015121E-16, 0.000000000000000000 ) ) ;
#247 = EDGE_CURVE ( 'NONE', #177, #143, #322, .T. ) ;
#248 = APPLICATION_PROTOCOL_DEFINITION ( 'international standard', 'config_control_design', 1994, #23 ) ;
#249 = VECTOR ( 'NONE', #269, 1000.000000000000000 ) ;
#250 = CARTESIAN_POINT ( 'NONE',  ( 0.000000000000000000, 0.000000000000000000, -4.059999999999999609 ) ) ;
#251 = LINE ( 'NONE', #136, #249 ) ;
#252 = UNCERTAINTY_MEASURE_WITH_UNIT (LENGTH_MEASURE( 1.000000000000000082E-05 ), #336, 'distance_accuracy_value', 'NONE');
#253 = ADVANCED_FACE ( 'NONE', ( #131, #34 ), #293, .F. ) ;
#254 = DIRECTION ( 'NONE',  ( 0.000000000000000000, 0.000000000000000000, -1.000000000000000000 ) ) ;
#255 = CIRCLE ( 'NONE', #111, 0.3699999999999999956 ) ;
#256 = DATE_AND_TIME ( #276, #185 ) ;
#257 = ORIENTED_EDGE ( 'NONE', *, *, #196, .T. ) ;
#258 = VERTEX_POINT ( 'NONE', #197 ) ;
#259 = SECURITY_CLASSIFICATION_LEVEL ( 'unclassified' ) ;
#260 = APPROVAL_PERSON_ORGANIZATION ( #130, #163, #107 ) ;
#261 = EDGE_LOOP ( 'NONE', ( #20 ) ) ;
#262 = CARTESIAN_POINT ( 'NONE',  ( 0.1078192932642391827, -0.04000000000000009104, -4.439999999999999503 ) ) ;
#263 = PRODUCT ( 'FM1016-2_3D', 'FM1016-2_3D', '', ( #187 ) ) ;
#264 = CARTESIAN_POINT ( 'NONE',  ( 0.000000000000000000, 0.000000000000000000, -0.1149999999999996581 ) ) ;
#265 = PLANE ( 'NONE',  #21 ) ;
#266 = SECURITY_CLASSIFICATION ( '', '', #259 ) ;
#267 = DIRECTION ( 'NONE',  ( -0.000000000000000000, -0.000000000000000000, 1.000000000000000000 ) ) ;
#268 = CIRCLE ( 'NONE', #229, 0.3699999999999999956 ) ;
#269 = DIRECTION ( 'NONE',  ( -0.000000000000000000, -0.000000000000000000, 1.000000000000000000 ) ) ;
#270 = APPROVAL ( #14, 'UNSPECIFIED' ) ;
#271 = CARTESIAN_POINT ( 'NONE',  ( 0.000000000000000000, 0.000000000000000000, -4.059999999999999609 ) ) ;
#272 = CARTESIAN_POINT ( 'NONE',  ( 0.000000000000000000, 0.000000000000000000, -4.439999999999999503 ) ) ;
#273 = DIRECTION ( 'NONE',  ( -1.000000000000000000, 0.000000000000000000, 0.000000000000000000 ) ) ;
#274 = DIRECTION ( 'NONE',  ( -0.000000000000000000, -0.000000000000000000, -1.000000000000000000 ) ) ;
#275 = CARTESIAN_POINT ( 'NONE',  ( 0.1078192932642391827, -0.04000000000000009104, -4.059999999999999609 ) ) ;
#276 = CALENDAR_DATE ( 2021, 21, 4 ) ;
#277 = ORIENTED_EDGE ( 'NONE', *, *, #36, .F. ) ;
#278 = PERSON_AND_ORGANIZATION_ROLE ( 'design_supplier' ) ;
#279 = VERTEX_POINT ( 'NONE', #135 ) ;
#280 = EDGE_CURVE ( 'NONE', #169, #169, #9, .T. ) ;
#281 = ORIENTED_EDGE ( 'NONE', *, *, #80, .F. ) ;
#282 = FACE_OUTER_BOUND ( 'NONE', #175, .T. ) ;
#283 = CARTESIAN_POINT ( 'NONE',  ( 0.000000000000000000, 0.000000000000000000, -4.059999999999999609 ) ) ;
#284 = CARTESIAN_POINT ( 'NONE',  ( 0.1078192932642391966, 0.04000000000000003553, -4.439999999999999503 ) ) ;
#285 = VERTEX_POINT ( 'NONE', #85 ) ;
#286 = DIRECTION ( 'NONE',  ( -1.000000000000000000, 0.000000000000000000, 0.000000000000000000 ) ) ;
#287 = AXIS2_PLACEMENT_3D ( 'NONE', #216, #324, #254 ) ;
#288 = EDGE_CURVE ( 'NONE', #207, #208, #160, .T. ) ;
#289 = EDGE_CURVE ( 'NONE', #258, #258, #268, .T. ) ;
#290 = DIRECTION ( 'NONE',  ( -1.000000000000000000, 0.000000000000000000, 0.000000000000000000 ) ) ;
#291 = PERSON_AND_ORGANIZATION ( #65, #56 ) ;
#292 = CARTESIAN_POINT ( 'NONE',  ( 0.1078192932642391966, 0.04000000000000003553, -4.059999999999999609 ) ) ;
#293 = CYLINDRICAL_SURFACE ( 'NONE', #340, 0.1150000000000000744 ) ;
#294 = CLOSED_SHELL ( 'NONE', ( #103, #141, #55, #253 ) ) ;
#295 = CARTESIAN_POINT ( 'NONE',  ( 0.000000000000000000, 0.000000000000000000, -0.8799999999999992273 ) ) ;
#296 = DIRECTION ( 'NONE',  ( 0.000000000000000000, 0.000000000000000000, 1.000000000000000000 ) ) ;
#297 = MANIFOLD_SOLID_BREP ( 'Boss-Extrude3', #294 ) ;
#298 = PRODUCT_DEFINITION_FORMATION_WITH_SPECIFIED_SOURCE ( 'ANY', '', #263, .NOT_KNOWN. ) ;
#299 = ORIENTED_EDGE ( 'NONE', *, *, #154, .F. ) ;
#300 = CC_DESIGN_PERSON_AND_ORGANIZATION_ASSIGNMENT ( #67, #92, ( #298 ) ) ;
#301 = AXIS2_PLACEMENT_3D ( 'NONE', #272, #108, #224 ) ;
#302 = CYLINDRICAL_SURFACE ( 'NONE', #179, 0.1150000000000000883 ) ;
#303 = APPROVAL_STATUS ( 'not_yet_approved' ) ;
#304 = DIRECTION ( 'NONE',  ( 1.000000000000000000, 0.000000000000000000, 0.000000000000000000 ) ) ;
#305 = COORDINATED_UNIVERSAL_TIME_OFFSET ( 8, 0, .BEHIND. ) ;
#306 = ORIENTED_EDGE ( 'NONE', *, *, #43, .F. ) ;
#307 = DIRECTION ( 'NONE',  ( 0.000000000000000000, 0.000000000000000000, 1.000000000000000000 ) ) ;
#308 = EDGE_CURVE ( 'NONE', #285, #279, #118, .T. ) ;
#309 = VERTEX_POINT ( 'NONE', #91 ) ;
#310 = CIRCLE ( 'NONE', #153, 0.1150000000000000883 ) ;
#311 = PERSON_AND_ORGANIZATION ( #65, #56 ) ;
#312 = ORIENTED_EDGE ( 'NONE', *, *, #36, .T. ) ;
#313 = VERTEX_POINT ( 'NONE', #40 ) ;
#314 = ORIENTED_EDGE ( 'NONE', *, *, #212, .T. ) ;
#315 = CIRCLE ( 'NONE', #222, 0.1150000000000000744 ) ;
#316 = ORIENTED_EDGE ( 'NONE', *, *, #212, .F. ) ;
#317 = EDGE_LOOP ( 'NONE', ( #114 ) ) ;
#318 = ADVANCED_FACE ( 'NONE', ( #113 ), #115, .F. ) ;
#319 = FACE_OUTER_BOUND ( 'NONE', #168, .T. ) ;
#320 = AXIS2_PLACEMENT_3D ( 'NONE', #149, #77, #101 ) ;
#321 = VECTOR ( 'NONE', #267, 1000.000000000000000 ) ;
#322 = LINE ( 'NONE', #191, #95 ) ;
#323 = CARTESIAN_POINT ( 'NONE',  ( 0.1078192932642391966, -0.04000000000000004940, -4.439999999999999503 ) ) ;
#324 = DIRECTION ( 'NONE',  ( 0.000000000000000000, -1.000000000000000000, -0.000000000000000000 ) ) ;
#325 = LOCAL_TIME ( 8, 58, 7.000000000000000000, #105 ) ;
#326 = DIRECTION ( 'NONE',  ( 0.000000000000000000, 0.000000000000000000, -1.000000000000000000 ) ) ;
#327 = DIRECTION ( 'NONE',  ( 0.000000000000000000, 0.000000000000000000, -1.000000000000000000 ) ) ;
#328 = ADVANCED_FACE ( 'NONE', ( #13, #204 ), #302, .T. ) ;
#329 = CC_DESIGN_DATE_AND_TIME_ASSIGNMENT ( #230, #87, ( #94 ) ) ;
#330 = CARTESIAN_POINT ( 'NONE',  ( 0.000000000000000000, 0.000000000000000000, -4.059999999999999609 ) ) ;
#331 = CALENDAR_DATE ( 2021, 21, 4 ) ;
#332 = ORIENTED_EDGE ( 'NONE', *, *, #247, .F. ) ;
#333 = AXIS2_PLACEMENT_3D ( 'NONE', #3, #129, #32 ) ;
#334 = VERTEX_POINT ( 'NONE', #161 ) ;
#335 = PERSON_AND_ORGANIZATION ( #65, #56 ) ;
#336 =( LENGTH_UNIT ( ) NAMED_UNIT ( * ) SI_UNIT ( .MILLI., .METRE. ) );
#337 = DIRECTION ( 'NONE',  ( 0.000000000000000000, 0.000000000000000000, -1.000000000000000000 ) ) ;
#338 = CALENDAR_DATE ( 2021, 21, 4 ) ;
#339 = EDGE_LOOP ( 'NONE', ( #316 ) ) ;
#340 = AXIS2_PLACEMENT_3D ( 'NONE', #156, #159, #33 ) ;
#341 = FACE_OUTER_BOUND ( 'NONE', #148, .T. ) ;
#342 = ORIENTED_EDGE ( 'NONE', *, *, #289, .F. ) ;
#343 = ORIENTED_EDGE ( 'NONE', *, *, #196, .F. ) ;
ENDSEC;
END-ISO-10303-21;
