ISO-10303-21;
HEADER;
FILE_DESCRIPTION (( 'STEP AP214' ),
    '1' );
FILE_NAME ('FM1016-1.step',
    '2021-04-21T15:49:44',
    ( '' ),
    ( '' ),
    'SwSTEP 2.0',
    'SolidWorks 2020',
    '' );
FILE_SCHEMA (( 'AUTOMOTIVE_DESIGN' ));
ENDSEC;

DATA;
#1 = CARTESIAN_POINT ( 'NONE',  ( 0.000000000000000000, 0.000000000000000000, -1.649999999999999911 ) ) ;
#2 = UNCERTAINTY_MEASURE_WITH_UNIT (LENGTH_MEASURE( 1.000000000000000082E-05 ), #126, 'distance_accuracy_value', 'NONE');
#3 = ORIENTED_EDGE ( 'NONE', *, *, #141, .T. ) ;
#4 = PLANE ( 'NONE',  #124 ) ;
#5 = LINE ( 'NONE', #95, #12 ) ;
#6 = DIRECTION ( 'NONE',  ( -1.000000000000000000, 0.000000000000000000, 0.000000000000000000 ) ) ;
#7 = VERTEX_POINT ( 'NONE', #116 ) ;
#8 =( NAMED_UNIT ( * ) PLANE_ANGLE_UNIT ( ) SI_UNIT ( $, .RADIAN. ) );
#9 = EDGE_LOOP ( 'NONE', ( #287, #241, #3, #61, #267, #29, #39, #188 ) ) ;
#10 = DIRECTION ( 'NONE',  ( 1.000000000000000000, 0.000000000000000000, 0.000000000000000000 ) ) ;
#11 = SURFACE_STYLE_USAGE ( .BOTH. , #219 ) ;
#12 = VECTOR ( 'NONE', #266, 1000.000000000000000 ) ;
#13 = DIRECTION ( 'NONE',  ( 2.513933591246015121E-16, 1.000000000000000000, 0.000000000000000000 ) ) ;
#14 = CARTESIAN_POINT ( 'NONE',  ( -0.1078192932642391966, -0.04000000000000003553, -1.270000000000000018 ) ) ;
#15 = DIRECTION ( 'NONE',  ( -0.000000000000000000, -0.000000000000000000, 1.000000000000000000 ) ) ;
#16 = DIRECTION ( 'NONE',  ( 1.000000000000000000, 0.000000000000000000, 0.000000000000000000 ) ) ;
#17 = FACE_OUTER_BOUND ( 'NONE', #127, .T. ) ;
#18 = AXIS2_PLACEMENT_3D ( 'NONE', #281, #80, #148 ) ;
#19 = EDGE_CURVE ( 'NONE', #7, #182, #114, .T. ) ;
#20 = EDGE_LOOP ( 'NONE', ( #190, #138, #152, #85 ) ) ;
#21 = PRODUCT_RELATED_PRODUCT_CATEGORY ( 'part', '', ( #180 ) ) ;
#22 = DIRECTION ( 'NONE',  ( 0.000000000000000000, 0.000000000000000000, -1.000000000000000000 ) ) ;
#23 = CARTESIAN_POINT ( 'NONE',  ( -0.1078192932642391966, 0.04000000000000003553, -1.649999999999999911 ) ) ;
#24 = ORIENTED_EDGE ( 'NONE', *, *, #141, .F. ) ;
#25 = APPLICATION_PROTOCOL_DEFINITION ( 'draft international standard', 'automotive_design', 1998, #150 ) ;
#26 = CARTESIAN_POINT ( 'NONE',  ( 0.000000000000000000, 0.000000000000000000, -1.270000000000000018 ) ) ;
#27 = ORIENTED_EDGE ( 'NONE', *, *, #167, .T. ) ;
#28 = LINE ( 'NONE', #239, #250 ) ;
#29 = ORIENTED_EDGE ( 'NONE', *, *, #173, .F. ) ;
#30 = EDGE_CURVE ( 'NONE', #209, #59, #201, .T. ) ;
#31 =( NAMED_UNIT ( * ) SI_UNIT ( $, .STERADIAN. ) SOLID_ANGLE_UNIT ( ) );
#32 = DIRECTION ( 'NONE',  ( -1.000000000000000000, 1.224646799147353207E-16, 0.000000000000000000 ) ) ;
#33 = DIRECTION ( 'NONE',  ( 0.000000000000000000, 0.000000000000000000, 1.000000000000000000 ) ) ;
#34 = CIRCLE ( 'NONE', #107, 0.1150000000000000883 ) ;
#35 = CARTESIAN_POINT ( 'NONE',  ( 0.1078192932642391688, -0.04000000000000009104, -1.270000000000000018 ) ) ;
#36 = DIRECTION ( 'NONE',  ( 0.000000000000000000, -1.000000000000000000, -0.000000000000000000 ) ) ;
#37 = DIRECTION ( 'NONE',  ( 0.000000000000000000, 0.000000000000000000, 1.000000000000000000 ) ) ;
#38 = AXIS2_PLACEMENT_3D ( 'NONE', #246, #13, #270 ) ;
#39 = ORIENTED_EDGE ( 'NONE', *, *, #19, .T. ) ;
#40 = PRODUCT_DEFINITION_FORMATION_WITH_SPECIFIED_SOURCE ( 'ANY', '', #180, .NOT_KNOWN. ) ;
#41 = VERTEX_POINT ( 'NONE', #112 ) ;
#42 = DIRECTION ( 'NONE',  ( -0.000000000000000000, -0.000000000000000000, 1.000000000000000000 ) ) ;
#43 = ORIENTED_EDGE ( 'NONE', *, *, #286, .F. ) ;
#44 = FACE_OUTER_BOUND ( 'NONE', #262, .T. ) ;
#45 = LINE ( 'NONE', #87, #166 ) ;
#46 = DIRECTION ( 'NONE',  ( 0.000000000000000000, -1.000000000000000000, 0.000000000000000000 ) ) ;
#47 = EDGE_LOOP ( 'NONE', ( #130, #24, #133, #160 ) ) ;
#48 = FACE_OUTER_BOUND ( 'NONE', #47, .T. ) ;
#49 = CARTESIAN_POINT ( 'NONE',  ( 0.1078192932642391827, -0.04000000000000009104, -1.649999999999999911 ) ) ;
#50 = DIRECTION ( 'NONE',  ( 0.000000000000000000, 0.000000000000000000, -1.000000000000000000 ) ) ;
#51 = DIRECTION ( 'NONE',  ( 1.000000000000000000, 0.000000000000000000, 0.000000000000000000 ) ) ;
#52 = ADVANCED_FACE ( 'NONE', ( #212 ), #4, .T. ) ;
#53 = CIRCLE ( 'NONE', #58, 0.1150000000000000883 ) ;
#54 = LINE ( 'NONE', #147, #222 ) ;
#55 = LINE ( 'NONE', #49, #158 ) ;
#56 = EDGE_CURVE ( 'NONE', #99, #156, #45, .T. ) ;
#57 = CARTESIAN_POINT ( 'NONE',  ( -0.1150000000000000883, 1.408343819019457384E-17, -1.649999999999999911 ) ) ;
#58 = AXIS2_PLACEMENT_3D ( 'NONE', #194, #275, #216 ) ;
#59 = VERTEX_POINT ( 'NONE', #23 ) ;
#60 = ORIENTED_EDGE ( 'NONE', *, *, #30, .T. ) ;
#61 = ORIENTED_EDGE ( 'NONE', *, *, #284, .T. ) ;
#62 = VERTEX_POINT ( 'NONE', #123 ) ;
#63 = ORIENTED_EDGE ( 'NONE', *, *, #111, .T. ) ;
#64 = CIRCLE ( 'NONE', #145, 0.1150000000000000050 ) ;
#65 = CARTESIAN_POINT ( 'NONE',  ( -0.1078192932642391966, 0.04000000000000003553, -1.649999999999999911 ) ) ;
#66 =( LENGTH_UNIT ( ) NAMED_UNIT ( * ) SI_UNIT ( .MILLI., .METRE. ) );
#67 = ORIENTED_EDGE ( 'NONE', *, *, #131, .F. ) ;
#68 = VERTEX_POINT ( 'NONE', #14 ) ;
#69 = PRODUCT_CONTEXT ( 'NONE', #150, 'mechanical' ) ;
#70 = DIRECTION ( 'NONE',  ( 1.000000000000000000, 0.000000000000000000, 0.000000000000000000 ) ) ;
#71 = ORIENTED_EDGE ( 'NONE', *, *, #173, .T. ) ;
#72 = AXIS2_PLACEMENT_3D ( 'NONE', #170, #273, #186 ) ;
#73 = CARTESIAN_POINT ( 'NONE',  ( -0.1150000000000000883, 1.408343819019457384E-17, -0.1150000000000000883 ) ) ;
#74 = ADVANCED_BREP_SHAPE_REPRESENTATION ( 'FM1016-1', ( #206, #18 ), #94 ) ;
#75 = SPHERICAL_SURFACE ( 'NONE', #106, 0.1150000000000000050 ) ;
#76 = CARTESIAN_POINT ( 'NONE',  ( 0.1078192932642391966, 0.04000000000000003553, -1.270000000000000018 ) ) ;
#77 = DIRECTION ( 'NONE',  ( 1.224646799147353207E-16, 1.000000000000000000, -0.000000000000000000 ) ) ;
#78 =( GEOMETRIC_REPRESENTATION_CONTEXT ( 3 ) GLOBAL_UNCERTAINTY_ASSIGNED_CONTEXT ( ( #229 ) ) GLOBAL_UNIT_ASSIGNED_CONTEXT ( ( #66, #211, #248 ) ) REPRESENTATION_CONTEXT ( 'NONE', 'WORKASPACE' ) );
#79 = LINE ( 'NONE', #121, #149 ) ;
#80 = DIRECTION ( 'NONE',  ( 0.000000000000000000, 0.000000000000000000, 1.000000000000000000 ) ) ;
#81 = FILL_AREA_STYLE ('',( #300 ) ) ;
#82 = ADVANCED_FACE ( 'NONE', ( #297 ), #118, .F. ) ;
#83 = AXIS2_PLACEMENT_3D ( 'NONE', #298, #77, #32 ) ;
#84 = EDGE_CURVE ( 'NONE', #265, #182, #93, .T. ) ;
#85 = ORIENTED_EDGE ( 'NONE', *, *, #228, .T. ) ;
#86 = PRODUCT_DEFINITION_SHAPE ( 'NONE', 'NONE',  #268 ) ;
#87 = CARTESIAN_POINT ( 'NONE',  ( 0.1078192932642391966, 0.04000000000000003553, -1.270000000000000018 ) ) ;
#88 = ADVANCED_FACE ( 'NONE', ( #225 ), #144, .T. ) ;
#89 = EDGE_CURVE ( 'NONE', #98, #62, #55, .T. ) ;
#90 = DIRECTION ( 'NONE',  ( 0.000000000000000000, 0.000000000000000000, -1.000000000000000000 ) ) ;
#91 = CYLINDRICAL_SURFACE ( 'NONE', #187, 0.1150000000000000883 ) ;
#92 = ORIENTED_EDGE ( 'NONE', *, *, #284, .F. ) ;
#93 = CIRCLE ( 'NONE', #254, 0.1150000000000000883 ) ;
#94 =( GEOMETRIC_REPRESENTATION_CONTEXT ( 3 ) GLOBAL_UNCERTAINTY_ASSIGNED_CONTEXT ( ( #256 ) ) GLOBAL_UNIT_ASSIGNED_CONTEXT ( ( #243, #8, #31 ) ) REPRESENTATION_CONTEXT ( 'NONE', 'WORKASPACE' ) );
#95 = CARTESIAN_POINT ( 'NONE',  ( 0.1078192932642391966, -0.04000000000000004940, -1.649999999999999911 ) ) ;
#96 = EDGE_CURVE ( 'NONE', #245, #7, #34, .T. ) ;
#97 = PLANE ( 'NONE',  #38 ) ;
#98 = VERTEX_POINT ( 'NONE', #103 ) ;
#99 = VERTEX_POINT ( 'NONE', #101 ) ;
#100 = DIRECTION ( 'NONE',  ( 0.000000000000000000, 0.000000000000000000, -1.000000000000000000 ) ) ;
#101 = CARTESIAN_POINT ( 'NONE',  ( -0.1078192932642392105, 0.04000000000000003553, -1.270000000000000018 ) ) ;
#102 = FILL_AREA_STYLE ('',( #218 ) ) ;
#103 = CARTESIAN_POINT ( 'NONE',  ( 0.1078192932642391966, -0.04000000000000004940, -1.649999999999999911 ) ) ;
#104 = DIRECTION ( 'NONE',  ( -0.000000000000000000, -0.000000000000000000, -1.000000000000000000 ) ) ;
#105 = DIRECTION ( 'NONE',  ( -1.000000000000000000, 2.513933591246015121E-16, 0.000000000000000000 ) ) ;
#106 = AXIS2_PLACEMENT_3D ( 'NONE', #164, #214, #70 ) ;
#107 = AXIS2_PLACEMENT_3D ( 'NONE', #249, #199, #221 ) ;
#108 = MECHANICAL_DESIGN_GEOMETRIC_PRESENTATION_REPRESENTATION (  '', ( #202 ), #78 ) ;
#109 = VERTEX_POINT ( 'NONE', #35 ) ;
#110 = CARTESIAN_POINT ( 'NONE',  ( 0.000000000000000000, 0.000000000000000000, -1.649999999999999911 ) ) ;
#111 = EDGE_CURVE ( 'NONE', #245, #156, #198, .T. ) ;
#112 = CARTESIAN_POINT ( 'NONE',  ( 7.041719095097280756E-18, 0.000000000000000000, -8.131516293641283255E-17 ) ) ;
#113 = DIRECTION ( 'NONE',  ( 0.000000000000000000, 0.000000000000000000, 1.000000000000000000 ) ) ;
#114 = LINE ( 'NONE', #285, #185 ) ;
#115 = DIRECTION ( 'NONE',  ( 0.000000000000000000, 0.000000000000000000, 1.000000000000000000 ) ) ;
#116 = CARTESIAN_POINT ( 'NONE',  ( 0.1150000000000000883, 0.000000000000000000, -1.649999999999999911 ) ) ;
#117 = DIRECTION ( 'NONE',  ( 0.000000000000000000, 0.000000000000000000, -1.000000000000000000 ) ) ;
#118 = PLANE ( 'NONE',  #272 ) ;
#119 = CIRCLE ( 'NONE', #213, 0.1150000000000000883 ) ;
#120 = PRESENTATION_LAYER_ASSIGNMENT (  '', '', ( #202 ) ) ;
#121 = CARTESIAN_POINT ( 'NONE',  ( 0.1078192932642391827, -0.04000000000000009104, -1.270000000000000018 ) ) ;
#122 = PLANE ( 'NONE',  #129 ) ;
#123 = CARTESIAN_POINT ( 'NONE',  ( -0.1078192932642392105, -0.04000000000000003553, -1.649999999999999911 ) ) ;
#124 = AXIS2_PLACEMENT_3D ( 'NONE', #1, #22, #161 ) ;
#125 = FACE_OUTER_BOUND ( 'NONE', #134, .T. ) ;
#126 =( LENGTH_UNIT ( ) NAMED_UNIT ( * ) SI_UNIT ( .MILLI., .METRE. ) );
#127 = EDGE_LOOP ( 'NONE', ( #67, #92 ) ) ;
#128 =( NAMED_UNIT ( * ) PLANE_ANGLE_UNIT ( ) SI_UNIT ( $, .RADIAN. ) );
#129 = AXIS2_PLACEMENT_3D ( 'NONE', #253, #37, #200 ) ;
#130 = ORIENTED_EDGE ( 'NONE', *, *, #131, .T. ) ;
#131 = EDGE_CURVE ( 'NONE', #109, #68, #79, .T. ) ;
#132 = DIRECTION ( 'NONE',  ( -1.000000000000000000, 0.000000000000000000, 0.000000000000000000 ) ) ;
#133 = ORIENTED_EDGE ( 'NONE', *, *, #89, .F. ) ;
#134 = EDGE_LOOP ( 'NONE', ( #157, #292, #237, #163, #210, #63, #184, #192 ) ) ;
#135 = SHAPE_DEFINITION_REPRESENTATION ( #86, #74 ) ;
#136 = SURFACE_STYLE_FILL_AREA ( #102 ) ;
#137 = EDGE_LOOP ( 'NONE', ( #257, #60, #274, #230, #71, #290 ) ) ;
#138 = ORIENTED_EDGE ( 'NONE', *, *, #111, .F. ) ;
#139 = CIRCLE ( 'NONE', #205, 0.1150000000000000883 ) ;
#140 = SURFACE_STYLE_FILL_AREA ( #81 ) ;
#141 = EDGE_CURVE ( 'NONE', #62, #68, #54, .T. ) ;
#142 = CARTESIAN_POINT ( 'NONE',  ( 0.000000000000000000, 0.000000000000000000, -1.649999999999999911 ) ) ;
#143 = DIRECTION ( 'NONE',  ( -1.000000000000000000, 0.000000000000000000, 0.000000000000000000 ) ) ;
#144 = SPHERICAL_SURFACE ( 'NONE', #280, 0.1150000000000000050 ) ;
#145 = AXIS2_PLACEMENT_3D ( 'NONE', #197, #46, #100 ) ;
#146 = CARTESIAN_POINT ( 'NONE',  ( 0.1150000000000000883, 0.000000000000000000, -0.1150000000000000883 ) ) ;
#147 = CARTESIAN_POINT ( 'NONE',  ( -0.1078192932642392105, -0.04000000000000003553, -1.649999999999999911 ) ) ;
#148 = DIRECTION ( 'NONE',  ( 1.000000000000000000, 0.000000000000000000, 0.000000000000000000 ) ) ;
#149 = VECTOR ( 'NONE', #224, 1000.000000000000000 ) ;
#150 = APPLICATION_CONTEXT ( 'automotive_design' ) ;
#151 = CARTESIAN_POINT ( 'NONE',  ( 0.000000000000000000, 0.000000000000000000, -1.270000000000000018 ) ) ;
#152 = ORIENTED_EDGE ( 'NONE', *, *, #172, .F. ) ;
#153 = EDGE_LOOP ( 'NONE', ( #234, #43, #236 ) ) ;
#154 =( NAMED_UNIT ( * ) SI_UNIT ( $, .STERADIAN. ) SOLID_ANGLE_UNIT ( ) );
#155 = AXIS2_PLACEMENT_3D ( 'NONE', #251, #36, #117 ) ;
#156 = VERTEX_POINT ( 'NONE', #76 ) ;
#157 = ORIENTED_EDGE ( 'NONE', *, *, #30, .F. ) ;
#158 = VECTOR ( 'NONE', #105, 1000.000000000000000 ) ;
#159 = VECTOR ( 'NONE', #42, 1000.000000000000000 ) ;
#160 = ORIENTED_EDGE ( 'NONE', *, *, #235, .T. ) ;
#161 = DIRECTION ( 'NONE',  ( -1.000000000000000000, 0.000000000000000000, -0.000000000000000000 ) ) ;
#162 = CARTESIAN_POINT ( 'NONE',  ( 0.1078192932642391966, 0.04000000000000003553, -1.649999999999999911 ) ) ;
#163 = ORIENTED_EDGE ( 'NONE', *, *, #19, .F. ) ;
#164 = CARTESIAN_POINT ( 'NONE',  ( 0.000000000000000000, 0.000000000000000000, -0.1150000000000000883 ) ) ;
#165 = DIRECTION ( 'NONE',  ( 0.000000000000000000, 0.000000000000000000, 1.000000000000000000 ) ) ;
#166 = VECTOR ( 'NONE', #183, 1000.000000000000000 ) ;
#167 = EDGE_CURVE ( 'NONE', #265, #41, #204, .T. ) ;
#168 = CARTESIAN_POINT ( 'NONE',  ( 0.000000000000000000, 0.000000000000000000, -1.270000000000000018 ) ) ;
#169 = LINE ( 'NONE', #195, #263 ) ;
#170 = CARTESIAN_POINT ( 'NONE',  ( 0.000000000000000000, 0.000000000000000000, -1.270000000000000018 ) ) ;
#171 = CARTESIAN_POINT ( 'NONE',  ( 0.1078192932642391966, 0.04000000000000003553, -1.649999999999999911 ) ) ;
#172 = EDGE_CURVE ( 'NONE', #59, #245, #169, .T. ) ;
#173 = EDGE_CURVE ( 'NONE', #7, #98, #119, .T. ) ;
#174 = DIRECTION ( 'NONE',  ( 1.000000000000000000, 0.000000000000000000, -0.000000000000000000 ) ) ;
#175 = AXIS2_PLACEMENT_3D ( 'NONE', #142, #289, #6 ) ;
#176 = VECTOR ( 'NONE', #276, 1000.000000000000000 ) ;
#177 = CIRCLE ( 'NONE', #72, 0.1150000000000000883 ) ;
#178 = PLANE ( 'NONE',  #155 ) ;
#179 = CARTESIAN_POINT ( 'NONE',  ( 0.000000000000000000, 0.000000000000000000, -1.270000000000000018 ) ) ;
#180 = PRODUCT ( 'FM1016-1', 'FM1016-1', '', ( #69 ) ) ;
#181 = PRODUCT_DEFINITION_CONTEXT ( 'detailed design', #220, 'design' ) ;
#182 = VERTEX_POINT ( 'NONE', #146 ) ;
#183 = DIRECTION ( 'NONE',  ( 1.000000000000000000, -0.000000000000000000, -0.000000000000000000 ) ) ;
#184 = ORIENTED_EDGE ( 'NONE', *, *, #301, .T. ) ;
#185 = VECTOR ( 'NONE', #165, 1000.000000000000000 ) ;
#186 = DIRECTION ( 'NONE',  ( 1.000000000000000000, 0.000000000000000000, 0.000000000000000000 ) ) ;
#187 = AXIS2_PLACEMENT_3D ( 'NONE', #26, #113, #10 ) ;
#188 = ORIENTED_EDGE ( 'NONE', *, *, #286, .T. ) ;
#189 = DIRECTION ( 'NONE',  ( 1.000000000000000000, 0.000000000000000000, 0.000000000000000000 ) ) ;
#190 = ORIENTED_EDGE ( 'NONE', *, *, #56, .T. ) ;
#191 = SURFACE_STYLE_USAGE ( .BOTH. , #240 ) ;
#192 = ORIENTED_EDGE ( 'NONE', *, *, #228, .F. ) ;
#193 = ADVANCED_FACE ( 'NONE', ( #299 ), #178, .F. ) ;
#194 = CARTESIAN_POINT ( 'NONE',  ( 0.000000000000000000, 0.000000000000000000, -0.1150000000000000883 ) ) ;
#195 = CARTESIAN_POINT ( 'NONE',  ( 0.1078192932642391966, 0.04000000000000003553, -1.649999999999999911 ) ) ;
#196 = ADVANCED_FACE ( 'NONE', ( #17 ), #122, .F. ) ;
#197 = CARTESIAN_POINT ( 'NONE',  ( 0.000000000000000000, 0.000000000000000000, -0.1150000000000000883 ) ) ;
#198 = LINE ( 'NONE', #171, #176 ) ;
#199 = DIRECTION ( 'NONE',  ( 0.000000000000000000, 0.000000000000000000, -1.000000000000000000 ) ) ;
#200 = DIRECTION ( 'NONE',  ( 1.000000000000000000, 0.000000000000000000, -0.000000000000000000 ) ) ;
#201 = CIRCLE ( 'NONE', #233, 0.1150000000000000883 ) ;
#202 = STYLED_ITEM ( 'NONE', ( #294 ), #74 ) ;
#203 = CYLINDRICAL_SURFACE ( 'NONE', #223, 0.1150000000000000883 ) ;
#204 = CIRCLE ( 'NONE', #83, 0.1150000000000000050 ) ;
#205 = AXIS2_PLACEMENT_3D ( 'NONE', #168, #115, #189 ) ;
#206 = MANIFOLD_SOLID_BREP ( 'Fillet1', #207 ) ;
#207 = CLOSED_SHELL ( 'NONE', ( #283, #227, #196, #82, #269, #193, #261, #52, #88 ) ) ;
#208 = COLOUR_RGB ( '',0.7921568627450980005, 0.8196078431372548767, 0.9333333333333333481 ) ;
#209 = VERTEX_POINT ( 'NONE', #57 ) ;
#210 = ORIENTED_EDGE ( 'NONE', *, *, #96, .F. ) ;
#211 =( NAMED_UNIT ( * ) PLANE_ANGLE_UNIT ( ) SI_UNIT ( $, .RADIAN. ) );
#212 = FACE_OUTER_BOUND ( 'NONE', #137, .T. ) ;
#213 = AXIS2_PLACEMENT_3D ( 'NONE', #277, #50, #143 ) ;
#214 = DIRECTION ( 'NONE',  ( 0.000000000000000000, 1.000000000000000000, 0.000000000000000000 ) ) ;
#215 = EDGE_LOOP ( 'NONE', ( #217, #291 ) ) ;
#216 = DIRECTION ( 'NONE',  ( 1.000000000000000000, 0.000000000000000000, 0.000000000000000000 ) ) ;
#217 = ORIENTED_EDGE ( 'NONE', *, *, #56, .F. ) ;
#218 = FILL_AREA_STYLE_COLOUR ( '', #208 ) ;
#219 = SURFACE_SIDE_STYLE ('',( #140 ) ) ;
#220 = APPLICATION_CONTEXT ( 'automotive_design' ) ;
#221 = DIRECTION ( 'NONE',  ( -1.000000000000000000, 0.000000000000000000, 0.000000000000000000 ) ) ;
#222 = VECTOR ( 'NONE', #15, 1000.000000000000000 ) ;
#223 = AXIS2_PLACEMENT_3D ( 'NONE', #151, #255, #252 ) ;
#224 = DIRECTION ( 'NONE',  ( -1.000000000000000000, 2.513933591246015121E-16, 0.000000000000000000 ) ) ;
#225 = FACE_OUTER_BOUND ( 'NONE', #153, .T. ) ;
#226 = DIRECTION ( 'NONE',  ( 1.000000000000000000, -0.000000000000000000, -0.000000000000000000 ) ) ;
#227 = ADVANCED_FACE ( 'NONE', ( #125 ), #203, .T. ) ;
#228 = EDGE_CURVE ( 'NONE', #59, #99, #242, .T. ) ;
#229 = UNCERTAINTY_MEASURE_WITH_UNIT (LENGTH_MEASURE( 1.000000000000000082E-05 ), #66, 'distance_accuracy_value', 'NONE');
#230 = ORIENTED_EDGE ( 'NONE', *, *, #96, .T. ) ;
#231 = EDGE_CURVE ( 'NONE', #209, #265, #28, .T. ) ;
#232 = CIRCLE ( 'NONE', #175, 0.1150000000000000883 ) ;
#233 = AXIS2_PLACEMENT_3D ( 'NONE', #110, #90, #132 ) ;
#234 = ORIENTED_EDGE ( 'NONE', *, *, #167, .F. ) ;
#235 = EDGE_CURVE ( 'NONE', #98, #109, #5, .T. ) ;
#236 = ORIENTED_EDGE ( 'NONE', *, *, #259, .T. ) ;
#237 = ORIENTED_EDGE ( 'NONE', *, *, #84, .T. ) ;
#238 = EDGE_CURVE ( 'NONE', #62, #209, #232, .T. ) ;
#239 = CARTESIAN_POINT ( 'NONE',  ( -0.1150000000000000883, 1.408343819019457384E-17, -1.270000000000000018 ) ) ;
#240 = SURFACE_SIDE_STYLE ('',( #136 ) ) ;
#241 = ORIENTED_EDGE ( 'NONE', *, *, #238, .F. ) ;
#242 = LINE ( 'NONE', #65, #159 ) ;
#243 =( LENGTH_UNIT ( ) NAMED_UNIT ( * ) SI_UNIT ( .MILLI., .METRE. ) );
#244 = STYLED_ITEM ( 'NONE', ( #295 ), #206 ) ;
#245 = VERTEX_POINT ( 'NONE', #162 ) ;
#246 = CARTESIAN_POINT ( 'NONE',  ( 0.1078192932642391827, -0.04000000000000009104, -1.649999999999999911 ) ) ;
#247 = CARTESIAN_POINT ( 'NONE',  ( 0.000000000000000000, 0.000000000000000000, -0.1150000000000000883 ) ) ;
#248 =( NAMED_UNIT ( * ) SI_UNIT ( $, .STERADIAN. ) SOLID_ANGLE_UNIT ( ) );
#249 = CARTESIAN_POINT ( 'NONE',  ( 0.000000000000000000, 0.000000000000000000, -1.649999999999999911 ) ) ;
#250 = VECTOR ( 'NONE', #264, 1000.000000000000000 ) ;
#251 = CARTESIAN_POINT ( 'NONE',  ( 0.1078192932642391966, 0.04000000000000003553, -1.649999999999999911 ) ) ;
#252 = DIRECTION ( 'NONE',  ( 1.000000000000000000, 0.000000000000000000, 0.000000000000000000 ) ) ;
#253 = CARTESIAN_POINT ( 'NONE',  ( 0.000000000000000000, 0.000000000000000000, -1.270000000000000018 ) ) ;
#254 = AXIS2_PLACEMENT_3D ( 'NONE', #279, #104, #16 ) ;
#255 = DIRECTION ( 'NONE',  ( 0.000000000000000000, 0.000000000000000000, 1.000000000000000000 ) ) ;
#256 = UNCERTAINTY_MEASURE_WITH_UNIT (LENGTH_MEASURE( 1.000000000000000082E-05 ), #243, 'distance_accuracy_value', 'NONE');
#257 = ORIENTED_EDGE ( 'NONE', *, *, #238, .T. ) ;
#258 =( GEOMETRIC_REPRESENTATION_CONTEXT ( 3 ) GLOBAL_UNCERTAINTY_ASSIGNED_CONTEXT ( ( #2 ) ) GLOBAL_UNIT_ASSIGNED_CONTEXT ( ( #126, #128, #154 ) ) REPRESENTATION_CONTEXT ( 'NONE', 'WORKASPACE' ) );
#259 = EDGE_CURVE ( 'NONE', #182, #41, #64, .T. ) ;
#260 = ORIENTED_EDGE ( 'NONE', *, *, #259, .F. ) ;
#261 = ADVANCED_FACE ( 'NONE', ( #48 ), #97, .F. ) ;
#262 = EDGE_LOOP ( 'NONE', ( #271, #27, #260 ) ) ;
#263 = VECTOR ( 'NONE', #226, 1000.000000000000000 ) ;
#264 = DIRECTION ( 'NONE',  ( 0.000000000000000000, 0.000000000000000000, 1.000000000000000000 ) ) ;
#265 = VERTEX_POINT ( 'NONE', #73 ) ;
#266 = DIRECTION ( 'NONE',  ( -0.000000000000000000, -0.000000000000000000, 1.000000000000000000 ) ) ;
#267 = ORIENTED_EDGE ( 'NONE', *, *, #235, .F. ) ;
#268 = PRODUCT_DEFINITION ( 'UNKNOWN', '', #40, #181 ) ;
#269 = ADVANCED_FACE ( 'NONE', ( #296 ), #91, .T. ) ;
#270 = DIRECTION ( 'NONE',  ( -1.000000000000000000, 2.513933591246015121E-16, 0.000000000000000000 ) ) ;
#271 = ORIENTED_EDGE ( 'NONE', *, *, #84, .F. ) ;
#272 = AXIS2_PLACEMENT_3D ( 'NONE', #179, #33, #174 ) ;
#273 = DIRECTION ( 'NONE',  ( 0.000000000000000000, 0.000000000000000000, 1.000000000000000000 ) ) ;
#274 = ORIENTED_EDGE ( 'NONE', *, *, #172, .T. ) ;
#275 = DIRECTION ( 'NONE',  ( -0.000000000000000000, -0.000000000000000000, -1.000000000000000000 ) ) ;
#276 = DIRECTION ( 'NONE',  ( -0.000000000000000000, -0.000000000000000000, 1.000000000000000000 ) ) ;
#277 = CARTESIAN_POINT ( 'NONE',  ( 0.000000000000000000, 0.000000000000000000, -1.649999999999999911 ) ) ;
#278 = PRESENTATION_LAYER_ASSIGNMENT (  '', '', ( #244 ) ) ;
#279 = CARTESIAN_POINT ( 'NONE',  ( 0.000000000000000000, 0.000000000000000000, -0.1150000000000000883 ) ) ;
#280 = AXIS2_PLACEMENT_3D ( 'NONE', #247, #282, #51 ) ;
#281 = CARTESIAN_POINT ( 'NONE',  ( 0.000000000000000000, 0.000000000000000000, 0.000000000000000000 ) ) ;
#282 = DIRECTION ( 'NONE',  ( 0.000000000000000000, 1.000000000000000000, 0.000000000000000000 ) ) ;
#283 = ADVANCED_FACE ( 'NONE', ( #44 ), #75, .T. ) ;
#284 = EDGE_CURVE ( 'NONE', #68, #109, #139, .T. ) ;
#285 = CARTESIAN_POINT ( 'NONE',  ( 0.1150000000000000883, 0.000000000000000000, -1.270000000000000018 ) ) ;
#286 = EDGE_CURVE ( 'NONE', #182, #265, #53, .T. ) ;
#287 = ORIENTED_EDGE ( 'NONE', *, *, #231, .F. ) ;
#288 = MECHANICAL_DESIGN_GEOMETRIC_PRESENTATION_REPRESENTATION (  '', ( #244 ), #258 ) ;
#289 = DIRECTION ( 'NONE',  ( 0.000000000000000000, 0.000000000000000000, -1.000000000000000000 ) ) ;
#290 = ORIENTED_EDGE ( 'NONE', *, *, #89, .T. ) ;
#291 = ORIENTED_EDGE ( 'NONE', *, *, #301, .F. ) ;
#292 = ORIENTED_EDGE ( 'NONE', *, *, #231, .T. ) ;
#293 = APPLICATION_PROTOCOL_DEFINITION ( 'draft international standard', 'automotive_design', 1998, #220 ) ;
#294 = PRESENTATION_STYLE_ASSIGNMENT (( #191 ) ) ;
#295 = PRESENTATION_STYLE_ASSIGNMENT (( #11 ) ) ;
#296 = FACE_OUTER_BOUND ( 'NONE', #9, .T. ) ;
#297 = FACE_OUTER_BOUND ( 'NONE', #215, .T. ) ;
#298 = CARTESIAN_POINT ( 'NONE',  ( 0.000000000000000000, 0.000000000000000000, -0.1150000000000000883 ) ) ;
#299 = FACE_OUTER_BOUND ( 'NONE', #20, .T. ) ;
#300 = FILL_AREA_STYLE_COLOUR ( '', #302 ) ;
#301 = EDGE_CURVE ( 'NONE', #156, #99, #177, .T. ) ;
#302 = COLOUR_RGB ( '',0.7921568627450980005, 0.8196078431372548767, 0.9333333333333333481 ) ;
ENDSEC;
END-ISO-10303-21;
